  0
SECTION
  2
HEADER
  9
$ACADVER
  1
AC1015
  9
$ACADMAINTVER
 70
     6
  9
$DWGCODEPAGE
  3
ANSI_1254
  9
$INSBASE
 10
0.0
 20
0.0
 30
0.0
  9
$EXTMIN
 10
0.0
 20
0.0
 30
0.0
  9
$EXTMAX
 10
279.4
 20
215.9
 30
0.0
  9
$LIMMIN
 10
0.0
 20
0.0
  9
$LIMMAX
 10
279.4
 20
215.9
  9
$ORTHOMODE
 70
     0
  9
$REGENMODE
 70
     1
  9
$FILLMODE
 70
     1
  9
$QTEXTMODE
 70
     0
  9
$MIRRTEXT
 70
     1
  9
$LTSCALE
 40
1.0
  9
$ATTMODE
 70
     1
  9
$TEXTSIZE
 40
3.5
  9
$TRACEWID
 40
1.0
  9
$TEXTSTYLE
  7
Standard
  9
$CLAYER
  8
0
  9
$CELTYPE
  6
ByLayer
  9
$CECOLOR
 62
   256
  9
$CELTSCALE
 40
1.0
  9
$DISPSILH
 70
     0
  9
$DIMSCALE
 40
1.0
  9
$DIMASZ
 40
3.5
  9
$DIMEXO
 40
1.0
  9
$DIMDLI
 40
3.75
  9
$DIMRND
 40
0.0
  9
$DIMDLE
 40
0.0
  9
$DIMEXE
 40
1.0
  9
$DIMTP
 40
0.0
  9
$DIMTM
 40
0.0
  9
$DIMTXT
 40
3.5
  9
$DIMCEN
 40
2.5
  9
$DIMTSZ
 40
0.0
  9
$DIMTOL
 70
     0
  9
$DIMLIM
 70
     0
  9
$DIMTIH
 70
     1
  9
$DIMTOH
 70
     1
  9
$DIMSE1
 70
     0
  9
$DIMSE2
 70
     0
  9
$DIMTAD
 70
     1
  9
$DIMZIN
 70
     0
  9
$DIMBLK
  1

  9
$DIMASO
 70
     1
  9
$DIMSHO
 70
     1
  9
$DIMPOST
  1

  9
$DIMAPOST
  1

  9
$DIMALT
 70
     0
  9
$DIMALTD
 70
     3
  9
$DIMALTF
 40
0.0393700787
  9
$DIMLFAC
 40
1.0
  9
$DIMTOFL
 70
     1
  9
$DIMTVP
 40
0.0
  9
$DIMTIX
 70
     0
  9
$DIMSOXD
 70
     0
  9
$DIMSAH
 70
     0
  9
$DIMBLK1
  1

  9
$DIMBLK2
  1

  9
$DIMSTYLE
  2
ISO-25
  9
$DIMCLRD
 70
     0
  9
$DIMCLRE
 70
     0
  9
$DIMCLRT
 70
     0
  9
$DIMTFAC
 40
1.0
  9
$DIMGAP
 40
1.524
  9
$DIMJUST
 70
     0
  9
$DIMSD1
 70
     0
  9
$DIMSD2
 70
     0
  9
$DIMTOLJ
 70
     0
  9
$DIMTZIN
 70
     0
  9
$DIMALTZ
 70
     0
  9
$DIMALTTZ
 70
     0
  9
$DIMUPT
 70
     0
  9
$DIMDEC
 70
     2
  9
$DIMTDEC
 70
     2
  9
$DIMALTU
 70
     2
  9
$DIMALTTD
 70
     3
  9
$DIMTXSTY
  7
Standard
  9
$DIMAUNIT
 70
     0
  9
$DIMADEC
 70
     2
  9
$DIMALTRND
 40
0.0
  9
$DIMAZIN
 70
     0
  9
$DIMDSEP
 70
    44
  9
$DIMATFIT
 70
     3
  9
$DIMFRAC
 70
     0
  9
$DIMLDRBLK
  1

  9
$DIMLUNIT
 70
     2
  9
$DIMLWD
 70
    -2
  9
$DIMLWE
 70
    -2
  9
$DIMTMOVE
 70
     0
  9
$LUNITS
 70
     2
  9
$LUPREC
 70
     2
  9
$SKETCHINC
 40
1.0
  9
$FILLETRAD
 40
10.0
  9
$AUNITS
 70
     0
  9
$AUPREC
 70
     2
  9
$MENU
  1
.
  9
$ELEVATION
 40
0.0
  9
$PELEVATION
 40
0.0
  9
$THICKNESS
 40
0.0
  9
$LIMCHECK
 70
     0
  9
$CHAMFERA
 40
0.0
  9
$CHAMFERB
 40
0.0
  9
$CHAMFERC
 40
0.0
  9
$CHAMFERD
 40
0.0
  9
$SKPOLY
 70
     0
  9
$TDCREATE
 40
2458985.68335934
  9
$TDUCREATE
 40
2458985.55835934
  9
$TDUPDATE
 40
2458985.683359722
  9
$TDUUPDATE
 40
2458985.558359722
  9
$TDINDWG
 40
0.0000000116
  9
$TDUSRTIMER
 40
0.0000000116
  9
$USRTIMER
 70
     1
  9
$ANGBASE
 50
0.0
  9
$ANGDIR
 70
     0
  9
$PDMODE
 70
     0
  9
$PDSIZE
 40
-1.0
  9
$PLINEWID
 40
0.0
  9
$SPLFRAME
 70
     0
  9
$SPLINETYPE
 70
     6
  9
$SPLINESEGS
 70
     8
  9
$HANDSEED
  5
CB
  9
$SURFTAB1
 70
     6
  9
$SURFTAB2
 70
     6
  9
$SURFTYPE
 70
     6
  9
$SURFU
 70
     6
  9
$SURFV
 70
     6
  9
$UCSBASE
  2

  9
$UCSNAME
  2

  9
$UCSORG
 10
0.0
 20
0.0
 30
0.0
  9
$UCSXDIR
 10
1.0
 20
0.0
 30
0.0
  9
$UCSYDIR
 10
0.0
 20
1.0
 30
0.0
  9
$UCSORTHOREF
  2

  9
$UCSORTHOVIEW
 70
     0
  9
$UCSORGTOP
 10
0.0
 20
0.0
 30
0.0
  9
$UCSORGBOTTOM
 10
0.0
 20
0.0
 30
0.0
  9
$UCSORGLEFT
 10
0.0
 20
0.0
 30
0.0
  9
$UCSORGRIGHT
 10
0.0
 20
0.0
 30
0.0
  9
$UCSORGFRONT
 10
0.0
 20
0.0
 30
0.0
  9
$UCSORGBACK
 10
0.0
 20
0.0
 30
0.0
  9
$PUCSBASE
  2

  9
$PUCSNAME
  2

  9
$PUCSORG
 10
0.0
 20
0.0
 30
0.0
  9
$PUCSXDIR
 10
1.0
 20
0.0
 30
0.0
  9
$PUCSYDIR
 10
0.0
 20
1.0
 30
0.0
  9
$PUCSORTHOREF
  2

  9
$PUCSORTHOVIEW
 70
     0
  9
$PUCSORGTOP
 10
0.0
 20
0.0
 30
0.0
  9
$PUCSORGBOTTOM
 10
0.0
 20
0.0
 30
0.0
  9
$PUCSORGLEFT
 10
0.0
 20
0.0
 30
0.0
  9
$PUCSORGRIGHT
 10
0.0
 20
0.0
 30
0.0
  9
$PUCSORGFRONT
 10
0.0
 20
0.0
 30
0.0
  9
$PUCSORGBACK
 10
0.0
 20
0.0
 30
0.0
  9
$USERI1
 70
     0
  9
$USERI2
 70
     0
  9
$USERI3
 70
     0
  9
$USERI4
 70
     0
  9
$USERI5
 70
     0
  9
$USERR1
 40
0.0
  9
$USERR2
 40
0.0
  9
$USERR3
 40
0.0
  9
$USERR4
 40
0.0
  9
$USERR5
 40
0.0
  9
$WORLDVIEW
 70
     1
  9
$SHADEDGE
 70
     3
  9
$SHADEDIF
 70
    70
  9
$TILEMODE
 70
     1
  9
$MAXACTVP
 70
    64
  9
$PINSBASE
 10
0.0
 20
0.0
 30
0.0
  9
$PLIMCHECK
 70
     0
  9
$PEXTMIN
 10
1.0000000000E+20
 20
1.0000000000E+20
 30
1.0000000000E+20
  9
$PEXTMAX
 10
-1.0000000000E+20
 20
-1.0000000000E+20
 30
-1.0000000000E+20
  9
$PLIMMIN
 10
0.0
 20
0.0
  9
$PLIMMAX
 10
420.0
 20
297.0
  9
$UNITMODE
 70
     0
  9
$VISRETAIN
 70
     1
  9
$PLINEGEN
 70
     0
  9
$PSLTSCALE
 70
     1
  9
$TREEDEPTH
 70
  3020
  9
$CMLSTYLE
  2
Standard
  9
$CMLJUST
 70
     0
  9
$CMLSCALE
 40
20.0
  9
$PROXYGRAPHICS
 70
     1
  9
$MEASUREMENT
 70
     1
  9
$CELWEIGHT
370
    -1
  9
$ENDCAPS
280
     0
  9
$JOINSTYLE
280
     0
  9
$LWDISPLAY
290
     1
  9
$INSUNITS
 70
     4
  9
$HYPERLINKBASE
  1

  9
$STYLESHEET
  1

  9
$XEDIT
290
     1
  9
$CEPSNTYPE
380
     0
  9
$PSTYLEMODE
290
     1
  9
$FINGERPRINTGUID
  2
{ad040056-602f-47bf-986c-6f173b52851e}
  9
$VERSIONGUID
  2
{FAEB1C32-E019-11D5-929B-00C0DF256EC4}
  9
$EXTNAMES
290
     1
  9
$PSVPSCALE
 40
0.0
  9
$OLESTARTUP
290
     0
  0
ENDSEC
  0
SECTION
  2
CLASSES
  0
CLASS
  1
ACDBDICTIONARYWDFLT
  2
AcDbDictionaryWithDefault
  3
ObjectDBX Classes
 90
        0
280
     0
281
     0
  0
CLASS
  1
VISUALSTYLE
  2
AcDbVisualStyle
  3
ObjectDBX Classes
 90
     4095
280
     0
281
     0
  0
CLASS
  1
MATERIAL
  2
AcDbMaterial
  3
ObjectDBX Classes
 90
     1153
280
     0
281
     0
  0
CLASS
  1
SCALE
  2
AcDbScale
  3
ObjectDBX Classes
 90
     1153
280
     0
281
     0
  0
CLASS
  1
TABLESTYLE
  2
AcDbTableStyle
  3
ObjectDBX Classes
 90
     4095
280
     0
281
     0
  0
CLASS
  1
MLEADERSTYLE
  2
AcDbMLeaderStyle
  3
ACDB_MLEADERSTYLE_CLASS
 90
     4095
280
     0
281
     0
  0
CLASS
  1
SUN
  2
AcDbSun
  3
SCENEOE
 90
     1153
280
     0
281
     0
  0
CLASS
  1
ACDBPLACEHOLDER
  2
AcDbPlaceHolder
  3
ObjectDBX Classes
 90
        0
280
     0
281
     0
  0
CLASS
  1
LAYOUT
  2
AcDbLayout
  3
ObjectDBX Classes
 90
        0
280
     0
281
     0
  0
ENDSEC
  0
SECTION
  2
TABLES
  0
TABLE
  2
VPORT
  5
8
330
0
100
AcDbSymbolTable
 70
     1
  0
VPORT
  5
29
330
8
100
AcDbSymbolTableRecord
100
AcDbViewportTableRecord
  2
*Active
 70
     0
 10
0.0
 20
0.0
 11
1.0
 21
1.0
 12
139.7
 22
107.95
 13
0.0
 23
0.0
 14
10.0
 24
10.0
 15
10.0
 25
10.0
 16
0.0
 26
0.0
 36
1.0
 17
0.0
 27
0.0
 37
0.0
 40
215.9
 41
1.2941176471
 42
50.0
 43
0.0
 44
0.0
 50
0.0
 51
0.0
 71
     0
 72
  2000
 73
     1
 74
     3
 75
     0
 76
     0
 77
     0
 78
     0
281
     0
 65
     1
110
0.0
120
0.0
130
0.0
111
1.0
121
0.0
131
0.0
112
0.0
122
1.0
132
0.0
 79
     0
146
0.0
  0
ENDTAB
  0
TABLE
  2
LTYPE
  5
5
330
0
100
AcDbSymbolTable
 70
     6
  0
LTYPE
  5
14
330
5
100
AcDbSymbolTableRecord
100
AcDbLinetypeTableRecord
  2
ByBlock
 70
     0
  3

 72
    65
 73
     0
 40
0.0
  0
LTYPE
  5
15
330
5
100
AcDbSymbolTableRecord
100
AcDbLinetypeTableRecord
  2
ByLayer
 70
     0
  3

 72
    65
 73
     0
 40
0.0
  0
LTYPE
  5
16
330
5
100
AcDbSymbolTableRecord
100
AcDbLinetypeTableRecord
  2
Continuous
 70
     0
  3
Solid line
 72
    65
 73
     0
 40
0.0
  0
LTYPE
  5
6E
330
5
100
AcDbSymbolTableRecord
100
AcDbLinetypeTableRecord
  2
HIDDEN
 70
     0
  3
Hidden __ __ __ __ __ __ __ __ __ __ __ __ __ __
 72
    65
 73
     2
 40
1.905
 49
1.27
 74
     0
 49
-0.635
 74
     0
  0
LTYPE
  5
6F
330
5
100
AcDbSymbolTableRecord
100
AcDbLinetypeTableRecord
  2
PHANTOM
 70
     0
  3
Phantom ______  __  __  ______  __  __  ______
 72
    65
 73
     6
 40
12.7
 49
6.35
 74
     0
 49
-1.27
 74
     0
 49
1.27
 74
     0
 49
-1.27
 74
     0
 49
1.27
 74
     0
 49
-1.27
 74
     0
  0
LTYPE
  5
70
330
5
100
AcDbSymbolTableRecord
100
AcDbLinetypeTableRecord
  2
CENTER
 70
     0
  3
Center ____ _ ____ _ ____ _ ____ _ ____ _ ____
 72
    65
 73
     4
 40
10.16
 49
6.35
 74
     0
 49
-1.27
 74
     0
 49
1.27
 74
     0
 49
-1.27
 74
     0
  0
LTYPE
  5
71
330
5
100
AcDbSymbolTableRecord
100
AcDbLinetypeTableRecord
  2
CENTERX2
 70
     0
  3
Center (2x) ________  __  ________  __  _____
 72
    65
 73
     4
 40
20.32
 49
12.7
 74
     0
 49
-2.54
 74
     0
 49
2.54
 74
     0
 49
-2.54
 74
     0
  0
LTYPE
  5
72
330
5
100
AcDbSymbolTableRecord
100
AcDbLinetypeTableRecord
  2
DOT2
 70
     0
  3
Dot (.5x) ........................................
 72
    65
 73
     2
 40
0.635
 49
0.0
 74
     0
 49
-0.635
 74
     0
  0
ENDTAB
  0
TABLE
  2
LAYER
  5
2
330
0
100
AcDbSymbolTable
 70
    17
  0
LAYER
  5
10
330
2
100
AcDbSymbolTableRecord
100
AcDbLayerTableRecord
  2
0
 70
     0
 62
     7
  6
Continuous
370
    -3
390
F
  0
LAYER
  5
73
330
2
100
AcDbSymbolTableRecord
100
AcDbLayerTableRecord
  2
FORMAT
 70
     0
 62
     7
  6
Continuous
370
    -3
390
F
  0
LAYER
  5
74
330
2
100
AcDbSymbolTableRecord
100
AcDbLayerTableRecord
  2
YARDIMCI_GEOMETRI
 70
     0
 62
    -6
  6
Continuous
290
     0
370
    -3
390
F
  0
LAYER
  5
75
330
2
100
AcDbSymbolTableRecord
100
AcDbLayerTableRecord
  2
SAYFA_CERCEVESI
 70
     0
 62
     7
  6
Continuous
370
    25
390
F
  0
LAYER
  5
76
330
2
100
AcDbSymbolTableRecord
100
AcDbLayerTableRecord
  2
ANTET
 70
     0
 62
     7
  6
Continuous
370
    -3
390
F
  0
LAYER
  5
77
330
2
100
AcDbSymbolTableRecord
100
AcDbLayerTableRecord
  2
OLCU
 70
     0
 62
   150
  6
Continuous
370
    -3
390
F
  0
LAYER
  5
78
330
2
100
AcDbSymbolTableRecord
100
AcDbLayerTableRecord
  2
METIN
 70
     0
 62
    96
  6
Continuous
370
    -3
390
F
  0
LAYER
  5
79
330
2
100
AcDbSymbolTableRecord
100
AcDbLayerTableRecord
  2
BALON
 70
     0
 62
     5
  6
Continuous
370
    -3
390
F
  0
LAYER
  5
7A
330
2
100
AcDbSymbolTableRecord
100
AcDbLayerTableRecord
  2
VURGU
 70
     0
 62
     7
  6
Continuous
370
    -3
390
F
  0
LAYER
  5
7B
330
2
100
AcDbSymbolTableRecord
100
AcDbLayerTableRecord
  2
SILIK
 70
     0
 62
     7
  6
Continuous
370
    -3
390
F
  0
LAYER
  5
7C
330
2
100
AcDbSymbolTableRecord
100
AcDbLayerTableRecord
  2
MODEL
 70
     0
 62
     7
  6
Continuous
370
    -3
390
F
  0
LAYER
  5
7D
330
2
100
AcDbSymbolTableRecord
100
AcDbLayerTableRecord
  2
DETAYLANDıRMA
 70
     0
 62
   190
  6
Continuous
370
    -3
390
F
  0
LAYER
  5
7E
330
2
100
AcDbSymbolTableRecord
100
AcDbLayerTableRecord
  2
TOLERANS
 70
     0
 62
   230
  6
Continuous
370
    -3
390
F
  0
LAYER
  5
7F
330
2
100
AcDbSymbolTableRecord
100
AcDbLayerTableRecord
  2
MERKEZ_CIZGILERI
 70
     0
 62
    30
  6
Continuous
370
    -3
390
F
  0
LAYER
  5
80
330
2
100
AcDbSymbolTableRecord
100
AcDbLayerTableRecord
  2
KESIT-DETAY_CIZGILERI
 70
     0
 62
     7
  6
Continuous
370
    -3
390
F
  0
LAYER
  5
81
330
2
100
AcDbSymbolTableRecord
100
AcDbLayerTableRecord
  2
\U+041E\U+0421\U+0415\U+0412\U+042B\U+0415
 70
     0
 62
     7
  6
Continuous
370
    -3
390
F
  0
LAYER
  5
82
330
2
100
AcDbSymbolTableRecord
100
AcDbLayerTableRecord
  2
\U+0412\U+041E\U+0414\U+042F\U+041D\U+042B\U+0415_\U+0417\U+041D\U+0410\U+041A\U+0418
 70
     0
 62
    11
  6
Continuous
370
    -3
390
F
  0
ENDTAB
  0
TABLE
  2
STYLE
  5
3
330
0
100
AcDbSymbolTable
 70
     1
  0
STYLE
  5
11
330
3
100
AcDbSymbolTableRecord
100
AcDbTextStyleTableRecord
  2
Standard
 70
     0
 40
0.0
 41
1.0
 50
0.0
 71
     0
 42
3.5
  3
txt
  4

  0
ENDTAB
  0
TABLE
  2
VIEW
  5
6
330
0
100
AcDbSymbolTable
 70
     0
  0
ENDTAB
  0
TABLE
  2
UCS
  5
7
330
0
100
AcDbSymbolTable
 70
     0
  0
ENDTAB
  0
TABLE
  2
APPID
  5
9
330
0
100
AcDbSymbolTable
 70
     1
  0
APPID
  5
12
330
9
100
AcDbSymbolTableRecord
100
AcDbRegAppTableRecord
  2
ACAD
 70
     0
  0
ENDTAB
  0
TABLE
  2
DIMSTYLE
  5
A
330
0
100
AcDbSymbolTable
 70
     1
100
AcDbDimStyleTable
  0
DIMSTYLE
105
27
330
A
100
AcDbSymbolTableRecord
100
AcDbDimStyleTableRecord
  2
ISO-25
 70
     0
 41
2.5
 42
0.625
 43
3.75
 44
1.25
 73
     0
 74
     0
 77
     1
 78
     8
140
2.5
141
2.5
143
0.0393700787
147
0.625
171
     3
172
     1
178
     0
271
     2
272
     2
274
     3
278
    44
283
     0
284
     8
340
11
  0
ENDTAB
  0
TABLE
  2
BLOCK_RECORD
  5
1
330
0
100
AcDbSymbolTable
 70
     3
  0
BLOCK_RECORD
  5
1F
330
1
100
AcDbSymbolTableRecord
100
AcDbBlockTableRecord
  2
*Model_Space
340
22
  0
BLOCK_RECORD
  5
1B
330
1
100
AcDbSymbolTableRecord
100
AcDbBlockTableRecord
  2
*Paper_Space
340
1E
  0
BLOCK_RECORD
  5
23
330
1
100
AcDbSymbolTableRecord
100
AcDbBlockTableRecord
  2
*Paper_Space0
340
26
  0
BLOCK_RECORD
  5
88
330
1
100
AcDbSymbolTableRecord
100
AcDbBlockTableRecord
  2
SW_CENTERMARKSYMBOL_0
340
0
102
{BLKREFS
331
93
102
}
  0
BLOCK_RECORD
  5
B2
330
1
100
AcDbSymbolTableRecord
100
AcDbBlockTableRecord
  2
SW_CENTERMARKSYMBOL_1
340
0
102
{BLKREFS
331
BD
102
}
  0
ENDTAB
  0
ENDSEC
  0
SECTION
  2
BLOCKS
  0
BLOCK
  5
20
330
1F
100
AcDbEntity
  8
0
100
AcDbBlockBegin
  2
*Model_Space
 70
     0
 10
0.0
 20
0.0
 30
0.0
  3
*Model_Space
  1

  0
ENDBLK
  5
21
330
1F
100
AcDbEntity
  8
0
100
AcDbBlockEnd
  0
BLOCK
  5
1C
330
1B
100
AcDbEntity
 67
     1
  8
0
100
AcDbBlockBegin
  2
*Paper_Space
 70
     0
 10
0.0
 20
0.0
 30
0.0
  3
*Paper_Space
  1

  0
ENDBLK
  5
1D
330
1B
100
AcDbEntity
 67
     1
  8
0
100
AcDbBlockEnd
  0
BLOCK
  5
24
330
23
100
AcDbEntity
  8
0
100
AcDbBlockBegin
  2
*Paper_Space0
 70
     0
 10
0.0
 20
0.0
 30
0.0
  3
*Paper_Space0
  1

  0
ENDBLK
  5
25
330
23
100
AcDbEntity
  8
0
100
AcDbBlockEnd
  0
BLOCK
  5
89
330
88
100
AcDbEntity
  8
0
100
AcDbBlockBegin
  2
SW_CENTERMARKSYMBOL_0
 70
     0
 10
0.0
 20
0.0
 30
0.0
  3
SW_CENTERMARKSYMBOL_0
  1

  0
LINE
  5
8B
330
88
100
AcDbEntity
  8
FORMAT
 62
     0
100
AcDbLine
 10
0.0
 20
0.0
 30
0.0
 11
0.0
 21
2.5
 31
0.0
  0
LINE
  5
8C
330
88
100
AcDbEntity
  8
FORMAT
 62
     0
100
AcDbLine
 10
0.0
 20
0.0
 30
0.0
 11
-2.5
 21
0.0
 31
0.0
  0
LINE
  5
8D
330
88
100
AcDbEntity
  8
FORMAT
 62
     0
100
AcDbLine
 10
0.0
 20
0.0
 30
0.0
 11
0.0
 21
-2.5
 31
0.0
  0
LINE
  5
8E
330
88
100
AcDbEntity
  8
FORMAT
 62
     0
100
AcDbLine
 10
0.0
 20
0.0
 30
0.0
 11
2.5
 21
0.0
 31
0.0
  0
LINE
  5
8F
330
88
100
AcDbEntity
  8
FORMAT
 62
     0
100
AcDbLine
 10
0.0
 20
5.0
 30
0.0
 11
0.0
 21
127.5
 31
0.0
  0
LINE
  5
90
330
88
100
AcDbEntity
  8
FORMAT
 62
     0
100
AcDbLine
 10
-5.0
 20
0.0
 30
0.0
 11
-127.5
 21
0.0
 31
0.0
  0
LINE
  5
91
330
88
100
AcDbEntity
  8
FORMAT
 62
     0
100
AcDbLine
 10
0.0
 20
-5.0
 30
0.0
 11
0.0
 21
-127.5
 31
0.0
  0
LINE
  5
92
330
88
100
AcDbEntity
  8
FORMAT
 62
     0
100
AcDbLine
 10
5.0
 20
0.0
 30
0.0
 11
127.5
 21
0.0
 31
0.0
  0
ENDBLK
  5
8A
330
88
100
AcDbEntity
  8
0
100
AcDbBlockEnd
  0
BLOCK
  5
B3
330
B2
100
AcDbEntity
  8
0
100
AcDbBlockBegin
  2
SW_CENTERMARKSYMBOL_1
 70
     0
 10
0.0
 20
0.0
 30
0.0
  3
SW_CENTERMARKSYMBOL_1
  1

  0
LINE
  5
B5
330
B2
100
AcDbEntity
  8
FORMAT
 62
     0
100
AcDbLine
 10
0.0
 20
0.0
 30
0.0
 11
0.0
 21
2.5
 31
0.0
  0
LINE
  5
B6
330
B2
100
AcDbEntity
  8
FORMAT
 62
     0
100
AcDbLine
 10
0.0
 20
0.0
 30
0.0
 11
-2.5
 21
0.0
 31
0.0
  0
LINE
  5
B7
330
B2
100
AcDbEntity
  8
FORMAT
 62
     0
100
AcDbLine
 10
0.0
 20
0.0
 30
0.0
 11
0.0
 21
-2.5
 31
0.0
  0
LINE
  5
B8
330
B2
100
AcDbEntity
  8
FORMAT
 62
     0
100
AcDbLine
 10
0.0
 20
0.0
 30
0.0
 11
2.5
 21
0.0
 31
0.0
  0
LINE
  5
B9
330
B2
100
AcDbEntity
  8
FORMAT
 62
     0
100
AcDbLine
 10
0.0
 20
5.0
 30
0.0
 11
0.0
 21
47.5
 31
0.0
  0
LINE
  5
BA
330
B2
100
AcDbEntity
  8
FORMAT
 62
     0
100
AcDbLine
 10
-5.0
 20
0.0
 30
0.0
 11
-47.5
 21
0.0
 31
0.0
  0
LINE
  5
BB
330
B2
100
AcDbEntity
  8
FORMAT
 62
     0
100
AcDbLine
 10
0.0
 20
-5.0
 30
0.0
 11
0.0
 21
-47.5
 31
0.0
  0
LINE
  5
BC
330
B2
100
AcDbEntity
  8
FORMAT
 62
     0
100
AcDbLine
 10
5.0
 20
0.0
 30
0.0
 11
47.5
 21
0.0
 31
0.0
  0
ENDBLK
  5
B4
330
B2
100
AcDbEntity
  8
0
100
AcDbBlockEnd
  0
ENDSEC
  0
SECTION
  2
ENTITIES
  0
LINE
  5
83
330
1F
100
AcDbEntity
  8
0
  6
Continuous
 62
     7
370
    25
100
AcDbLine
 10
198.6463286304
 20
60.5817547945
 30
0.0
 11
324.9645829887
 21
60.5817547945
 31
0.0
  0
LINE
  5
84
330
1F
100
AcDbEntity
  8
0
  6
Continuous
 62
     7
370
    25
100
AcDbLine
 10
324.9645829887
 20
150.5817547945
 30
0.0
 11
198.64215
 21
150.5817547945
 31
0.0
  0
CIRCLE
  5
85
330
1F
100
AcDbEntity
  8
0
  6
Continuous
 62
     7
370
    25
100
AcDbCircle
 10
81.9645829887
 20
105.5817547945
 30
0.0
 40
102.3
  0
CIRCLE
  5
86
330
1F
100
AcDbEntity
  8
0
  6
Continuous
 62
     7
370
    25
100
AcDbCircle
 10
81.9645829887
 20
105.5817547945
 30
0.0
 40
125.0
  0
LINE
  5
87
330
1F
100
AcDbEntity
  8
0
  6
Continuous
 62
     7
370
    25
100
AcDbLine
 10
324.9645829887
 20
150.5817547945
 30
0.0
 11
324.9645829887
 21
60.5817547945
 31
0.0
  0
INSERT
  5
93
330
1F
100
AcDbEntity
  8
FORMAT
100
AcDbBlockReference
  2
SW_CENTERMARKSYMBOL_0
 10
81.9645829887
 20
105.5817547945
 30
0.0
  0
LINE
  5
94
330
1F
100
AcDbEntity
  8
0
  6
Continuous
 62
     7
370
    25
100
AcDbLine
 10
-43.0354170113
 20
-117.8823646085
 30
0.0
 11
-43.0354170113
 21
-707.8823646085
 31
0.0
  0
LINE
  5
95
330
1F
100
AcDbEntity
  8
0
  6
Continuous
 62
     7
370
    25
100
AcDbLine
 10
206.9645829887
 20
-367.904755135
 30
0.0
 11
206.9645829887
 21
-117.8823646085
 31
0.0
  0
LINE
  5
96
330
1F
100
AcDbEntity
  8
0
  6
Continuous
 62
     7
370
    25
100
AcDbLine
 10
206.9645829887
 20
-707.8823646085
 30
0.0
 11
206.9645829887
 21
-457.8823646085
 31
0.0
  0
LINE
  5
97
330
1F
100
AcDbEntity
  8
0
  6
Continuous
 62
     7
370
    25
100
AcDbLine
 10
206.9645829887
 20
-457.8823646085
 30
0.0
 11
324.9645829887
 21
-457.8823646085
 31
0.0
  0
LINE
  5
98
330
1F
100
AcDbEntity
  8
0
  6
Continuous
 62
     7
370
    25
100
AcDbLine
 10
324.9645829887
 20
-367.8823646085
 30
0.0
 11
206.9566080818
 21
-367.8823646085
 31
0.0
  0
LWPOLYLINE
  5
99
330
1F
100
AcDbEntity
  8
0
  6
Continuous
 62
     7
370
    25
100
AcDbPolyline
 90
       25
 70
   128
 43
0.0
 10
206.956566229
 20
-367.904755135
 10
206.7559807971
 20
-368.4651048215
 10
206.1728346781
 20
-370.130875889
 10
205.2431469634
 20
-372.9123216305
 10
204.0678219595
 20
-376.6994823689
 10
202.7267578074
 20
-381.5215153383
 10
201.350550905
 20
-387.3283172711
 10
200.0913656072
 20
-394.0691572319
 10
199.1677960222
 20
-401.1950575884
 10
198.8476958964
 20
-405.0339838979
 10
198.65021789
 20
-408.9406147014
 10
198.6286736322
 20
-416.1242846696
 10
199.0594673683
 20
-423.4280721655
 10
199.8414165838
 20
-430.0564118431
 10
200.9309250011
 20
-436.3981153262
 10
202.2249216115
 20
-442.2515499166
 10
203.6019930621
 20
-447.4606747083
 10
204.9089669235
 20
-451.8094957782
 10
205.4972807535
 20
-453.6296407078
 10
206.0049887421
 20
-455.1437211825
 10
206.4084941786
 20
-456.3139913593
 10
206.7085595979
 20
-457.1662183284
 10
206.8997820713
 20
-457.7023510354
 10
206.9645829887
 20
-457.8823646085
 10
206.9645829887
 20
-457.8823646085
  0
LINE
  5
9A
330
1F
100
AcDbEntity
  8
0
  6
Continuous
 62
     7
370
    25
100
AcDbLine
 10
206.9645829887
 20
-707.8823646085
 30
0.0
 11
-43.0354170113
 21
-707.8823646085
 31
0.0
  0
LINE
  5
9B
330
1F
100
AcDbEntity
  8
0
  6
Continuous
 62
     7
370
    25
100
AcDbLine
 10
206.9645829887
 20
-117.8823646085
 30
0.0
 11
-43.0354170113
 21
-117.8823646085
 31
0.0
  0
LINE
  5
9C
330
1F
100
AcDbEntity
  8
0
  6
Continuous
 62
     7
370
    25
100
AcDbLine
 10
324.9645829887
 20
-367.8823646085
 30
0.0
 11
324.9645829887
 21
-457.8823646085
 31
0.0
  0
LINE
  5
9D
330
1F
100
AcDbEntity
  8
0
  6
Continuous
 62
     7
370
    25
100
AcDbLine
 10
206.9645829887
 20
687.4876110348
 30
0.0
 11
206.9645829887
 21
937.4876110348
 31
0.0
  0
LINE
  5
9E
330
1F
100
AcDbEntity
  8
0
  6
Continuous
 62
     7
370
    25
100
AcDbLine
 10
206.9645829887
 20
347.4876110348
 30
0.0
 11
206.9645829887
 21
597.5100015613
 31
0.0
  0
LINE
  5
9F
330
1F
100
AcDbEntity
  8
0
  6
Continuous
 62
     7
370
    25
100
AcDbLine
 10
-43.0354170113
 20
937.4876110348
 30
0.0
 11
-43.0354170113
 21
347.4876110348
 31
0.0
  0
LINE
  5
A0
330
1F
100
AcDbEntity
  8
0
  6
Continuous
 62
     7
370
    25
100
AcDbLine
 10
206.9566080818
 20
597.4876110348
 30
0.0
 11
324.9645829887
 21
597.4876110348
 31
0.0
  0
LINE
  5
A1
330
1F
100
AcDbEntity
  8
0
  6
Continuous
 62
     7
370
    25
100
AcDbLine
 10
324.9645829887
 20
687.4876110348
 30
0.0
 11
206.9645829887
 21
687.4876110348
 31
0.0
  0
SPLINE
  5
A2
330
1F
100
AcDbEntity
  8
0
  6
Continuous
 62
     7
370
    25
100
AcDbSpline
210
0.0
220
0.0
230
1.0
 70
     8
 71
     3
 72
    30
 73
    26
 74
     0
 42
0.000000001
 43
0.00000001
 40
0.0
 40
0.0
 40
0.0
 40
0.0
 40
0.050637798639442
 40
0.1027994879645778
 40
0.1534228791560807
 40
0.205420660591755
 40
0.2578672362887131
 40
0.3117330878951308
 40
0.3658777122080799
 40
0.3937083443411499
 40
0.4217687106570514
 40
0.4737838978994348
 40
0.5005511957782355
 40
0.5275421667126232
 40
0.5768233869952262
 40
0.6274905891639689
 40
0.6777253918399133
 40
0.7292560885928416
 40
0.7825331082043478
 40
0.8373098258996773
 40
0.8911835149101242
 40
0.9188944838046847
 40
0.9468385977822622
 40
0.9980458733311771
 40
1.0
 40
1.0
 40
1.0
 40
1.0
 10
206.9645829886867
 20
687.487611034842
 30
0.0
 10
206.9240070598772
 20
687.3755186049373
 30
0.0
 10
206.8416341128419
 20
687.1479604426846
 30
0.0
 10
206.1955572027563
 20
685.3238838000499
 30
0.0
 10
205.2298580873481
 20
682.4581032829152
 30
0.0
 10
204.0057641613093
 20
678.5430818413316
 30
0.0
 10
202.6256136508981
 20
673.6026023036289
 30
0.0
 10
201.2323651372439
 20
667.7361989908696
 30
0.0
 10
200.1887116554815
 20
662.146100669761
 30
0.0
 10
199.5048229922856
 20
657.3291860764971
 30
0.0
 10
198.9637424822995
 20
652.444147648155
 30
0.0
 10
198.6413209034108
 20
647.4204714803382
 30
0.0
 10
198.5627097224214
 20
642.3972546129818
 30
0.0
 10
198.6467216368978
 20
637.5040732195981
 30
0.0
 10
199.0285092581543
 20
631.5416656534379
 30
0.0
 10
199.8582642071472
 20
624.7953630079684
 30
0.0
 10
200.9890809182157
 20
618.4325605315958
 30
0.0
 10
202.3126352404233
 20
612.6006704341842
 30
0.0
 10
203.7163636021651
 20
607.4085966577786
 30
0.0
 10
205.0339863930586
 20
603.1144698564339
 30
0.0
 10
205.9279670870136
 20
600.4399922567768
 30
0.0
 10
206.4641458661156
 20
598.89381687024
 30
0.0
 10
206.8226466708939
 20
597.8802175190579
 30
0.0
 10
207.0316987595953
 20
597.3001466246156
 30
0.0
 10
206.9592300605194
 20
597.5025611332386
 30
0.0
 10
206.9565662290249
 20
597.5100015613115
 30
0.0
  0
LINE
  5
A3
330
1F
100
AcDbEntity
  8
0
  6
Continuous
 62
     7
370
    25
100
AcDbLine
 10
-43.0354170113
 20
937.4876110348
 30
0.0
 11
206.9645829887
 21
937.4876110348
 31
0.0
  0
LINE
  5
A4
330
1F
100
AcDbEntity
  8
0
  6
Continuous
 62
     7
370
    25
100
AcDbLine
 10
-43.0354170113
 20
347.4876110348
 30
0.0
 11
206.9645829887
 21
347.4876110348
 31
0.0
  0
LINE
  5
A5
330
1F
100
AcDbEntity
  8
0
  6
Continuous
 62
     7
370
    25
100
AcDbLine
 10
324.9645829887
 20
687.4876110348
 30
0.0
 11
324.9645829887
 21
597.4876110348
 31
0.0
  0
LINE
  5
A6
330
1F
100
AcDbEntity
  8
0
  6
Continuous
 62
     7
370
    25
100
AcDbLine
 10
497.0935875431
 20
-19.4182452055
 30
0.0
 11
1087.0935875431
 21
-19.4182452055
 31
0.0
  0
LINE
  5
A7
330
1F
100
AcDbEntity
  8
0
  6
Continuous
 62
     7
370
    25
100
AcDbLine
 10
1087.0935875431
 20
230.5817547945
 30
0.0
 11
497.0935875431
 21
230.5817547945
 31
0.0
  0
LINE
  5
A8
330
1F
100
AcDbEntity
  8
0
  6
Continuous
 62
     7
370
    25
100
AcDbLine
 10
1087.0935875431
 20
230.5817547945
 30
0.0
 11
1087.0935875431
 21
-19.4182452055
 31
0.0
  0
LINE
  5
A9
330
1F
100
AcDbEntity
  8
0
  6
Continuous
 62
     7
370
    25
100
AcDbLine
 10
497.0935875431
 20
230.5817547945
 30
0.0
 11
497.0935875431
 21
-19.4182452055
 31
0.0
  0
LINE
  5
AA
330
1F
100
AcDbEntity
  8
0
  6
Continuous
 62
     7
370
    25
100
AcDbLine
 10
-215.1980706121
 20
230.5817547945
 30
0.0
 11
-805.1980706121
 21
230.5817547945
 31
0.0
  0
LINE
  5
AB
330
1F
100
AcDbEntity
  8
0
  6
Continuous
 62
     7
370
    25
100
AcDbLine
 10
-805.1980706121
 20
-19.4182452055
 30
0.0
 11
-215.1980706121
 21
-19.4182452055
 31
0.0
  0
CIRCLE
  5
AC
330
1F
100
AcDbEntity
  8
0
  6
Continuous
 62
     7
370
    25
100
AcDbCircle
 10
-510.1980706121
 20
105.5817547945
 30
0.0
 40
36.80000000000001
  0
CIRCLE
  5
AD
330
1F
100
AcDbEntity
  8
0
  6
Continuous
 62
     7
370
    25
100
AcDbCircle
 10
-510.1980706121
 20
105.5817547945
 30
0.0
 40
45.00000000000006
  0
LINE
  5
AE
330
1F
100
AcDbEntity
  8
0
  6
Continuous
 62
     7
370
    25
100
AcDbLine
 10
-805.1980706121
 20
105.5817547945
 30
0.0
 11
-805.1980706121
 21
230.5817547945
 31
0.0
  0
LINE
  5
AF
330
1F
100
AcDbEntity
  8
0
  6
Continuous
 62
     7
370
    25
100
AcDbLine
 10
-805.1980706121
 20
-19.4182452055
 30
0.0
 11
-805.1980706121
 21
105.5817547945
 31
0.0
  0
LINE
  5
B0
330
1F
100
AcDbEntity
  8
0
  6
Continuous
 62
     7
370
    25
100
AcDbLine
 10
-215.1980706121
 20
105.5817547945
 30
0.0
 11
-215.1980706121
 21
230.5817547945
 31
0.0
  0
LINE
  5
B1
330
1F
100
AcDbEntity
  8
0
  6
Continuous
 62
     7
370
    25
100
AcDbLine
 10
-215.1980706121
 20
-19.4182452055
 30
0.0
 11
-215.1980706121
 21
105.5817547945
 31
0.0
  0
INSERT
  5
BD
330
1F
100
AcDbEntity
  8
FORMAT
100
AcDbBlockReference
  2
SW_CENTERMARKSYMBOL_1
 10
-510.1980706121
 20
105.5817547945
 30
0.0
  0
LINE
  5
BE
330
1F
100
AcDbEntity
  8
0
  6
Continuous
 62
     7
370
    25
100
AcDbLine
 10
1071.0422652624
 20
-456.8127099488
 30
0.0
 11
969.9646605973
 21
-398.4618508086
 31
0.0
  0
LINE
  5
BF
330
1F
100
AcDbEntity
  8
0
  6
Continuous
 62
     7
370
    25
100
AcDbLine
 10
879.9573459401
 20
-346.5017340591
 30
0.0
 11
653.8492643623
 21
-215.9723169611
 31
0.0
  0
LINE
  5
C0
330
1F
100
AcDbEntity
  8
0
  6
Continuous
 62
     7
370
    25
100
AcDbLine
 10
528.8594227828
 20
-432.4845325562
 30
0.0
 11
946.0524236829
 21
-673.3249255439
 31
0.0
  0
LINE
  5
C1
330
1F
100
AcDbEntity
  8
0
  6
Continuous
 62
     7
370
    25
100
AcDbLine
 10
907.9227556868
 20
-434.2778801478
 30
0.0
 11
994.2759633352
 21
-384.4272344732
 31
0.0
  0
LINE
  5
C2
330
1F
100
AcDbEntity
  8
0
  6
Continuous
 62
     7
370
    25
100
AcDbLine
 10
949.2796203666
 20
-306.4828368589
 30
0.0
 11
862.9269278746
 21
-356.33318514
 31
0.0
  0
SPLINE
  5
C3
330
1F
100
AcDbEntity
  8
0
  6
Continuous
 62
     7
370
    25
100
AcDbSpline
210
0.0
220
0.0
230
1.0
 70
     8
 71
     3
 72
    24
 73
    20
 74
     0
 42
0.000000001
 43
0.00000001
 40
0.0
 40
0.0
 40
0.0
 40
0.0
 40
0.0675153920025816
 40
0.1370625879101135
 40
0.2045587704580684
 40
0.2738874279277801
 40
0.3438144629196832
 40
0.415633818904236
 40
0.4878248626214072
 40
0.5249314527305654
 40
0.5623443474940927
 40
0.6316962121310721
 40
0.6673850583624219
 40
0.7033721279453812
 40
0.7690787936208893
 40
0.836633389357842
 40
0.9036114667223066
 40
0.972317360045446
 40
1.0
 40
1.0
 40
1.0
 40
1.0
 10
856.5193865175129
 20
-375.2539317475609
 30
0.0
 10
856.5699563203449
 20
-377.2818186925342
 30
0.0
 10
856.672617770433
 20
-381.398619682989
 30
0.0
 10
857.5055893704664
 20
-388.1884040089226
 30
0.0
 10
858.8491498110153
 20
-395.2436541304347
 30
0.0
 10
860.7519229180015
 20
-402.3689349600538
 30
0.0
 10
863.2694556665604
 20
-409.4706106821556
 30
0.0
 10
866.4324539500309
 20
-416.2824862882638
 30
0.0
 10
869.6472753205393
 20
-421.5335808663562
 30
0.0
 10
872.5697672481572
 20
-425.3481920793247
 30
0.0
 10
875.6414042871684
 20
-428.7617539975975
 30
0.0
 10
878.9657222439429
 20
-431.6293856469777
 30
0.0
 10
882.462017950558
 20
-433.8781760076729
 30
0.0
 10
885.9816958395422
 20
-435.6640531177642
 30
0.0
 10
890.4658150347365
 20
-437.1264134901894
 30
0.0
 10
895.8308820578376
 20
-437.7090483818243
 30
0.0
 10
901.099844605669
 20
-437.0796829434224
 30
0.0
 10
905.1894071396755
 20
-435.8804796425632
 30
0.0
 10
907.2545966756571
 20
-434.5368854086095
 30
0.0
 10
907.8477159650417
 20
-434.1510071909546
 30
0.0
  0
SPLINE
  5
C4
330
1F
100
AcDbEntity
  8
0
  6
Continuous
 62
     7
370
    25
100
AcDbSpline
210
0.0
220
0.0
230
1.0
 70
     8
 71
     3
 72
    15
 73
    11
 74
     0
 42
0.000000001
 43
0.00000001
 40
0.0
 40
0.0
 40
0.0
 40
0.0
 40
0.1168369951582485
 40
0.3330846527460579
 40
0.444142434607327
 40
0.5560799204445919
 40
0.664728771098084
 40
0.7742536062072456
 40
0.8866210786621603
 40
1.0
 40
1.0
 40
1.0
 40
1.0
 10
863.0035444917789
 20
-356.4644300843286
 30
0.0
 10
862.4891080720256
 20
-356.7343974026226
 30
0.0
 10
861.0225274226228
 20
-357.5040335127
 30
0.0
 10
859.6162792475468
 20
-359.5211722195806
 30
0.0
 10
858.461615592239
 20
-361.9428751653872
 30
0.0
 10
857.7582409655181
 20
-364.0742121424778
 30
0.0
 10
857.209786244244
 20
-366.4595032611027
 30
0.0
 10
856.8177510104416
 20
-369.1071862230129
 30
0.0
 10
856.5665909810677
 20
-372.0227182334856
 30
0.0
 10
856.5351682681561
 20
-374.173648187199
 30
0.0
 10
856.5193865175129
 20
-375.2539317475609
 30
0.0
  0
LWPOLYLINE
  5
C5
330
1F
100
AcDbEntity
  8
0
  6
Continuous
 62
     7
370
    25
100
AcDbPolyline
 90
      119
 70
   128
 43
0.0
 10
679.7426912209
 20
-273.2029177697
 10
679.6174180336
 20
-267.8429767094
 10
679.2419535724
 20
-262.6428663276
 10
678.6173621319
 20
-257.6173269023
 10
677.7454141844
 20
-252.7806038709
 10
676.6285813613
 20
-248.1464074503
 10
675.2700294463
 20
-243.7278737739
 10
673.6736094027
 20
-239.5375276553
 10
671.8438464563
 20
-235.5872470859
 10
669.7859272691
 20
-231.8882295652
 10
667.5056852366
 20
-228.4509603602
 10
665.0095839526
 20
-225.285182784
 10
662.3046988874
 20
-222.3998705769
 10
659.3986973314
 20
-219.80320247
 10
656.299816662
 20
-217.5025390011
 10
653.0168409931
 20
-215.5044016508
 10
649.5590762757
 20
-213.8144543564
 10
645.9363239198
 20
-212.4374874572
 10
642.1588530105
 20
-211.3774041156
 10
638.2373711994
 20
-210.6372092527
 10
634.1829943528
 20
-210.2190010316
 10
630.0072150424
 20
-210.1239649087
 10
625.7218699684
 20
-210.3523702743
 10
621.3391064068
 20
-210.9035696885
 10
616.8713477773
 20
-211.7760007168
 10
612.331258427
 20
-212.9671903587
 10
607.7317077325
 20
-214.4737620575
 10
603.0857336199
 20
-216.2914452723
 10
598.4065056077
 20
-218.4150875823
 10
593.707287476
 20
-220.8386692929
 10
589.0013996691
 20
-223.5553204982
 10
584.3021815374
 20
-226.5573405554
 10
579.6229535252
 20
-229.8362199123
 10
574.9769794126
 20
-233.3826642293
 10
570.3774287181
 20
-237.1866207245
 10
565.8373393678
 20
-241.2373066701
 10
561.3695807383
 20
-245.5232399566
 10
556.9868171768
 20
-250.0322716404
 10
552.7014721027
 20
-254.7516203814
 10
548.5256927923
 20
-259.6679086729
 10
544.4713159457
 20
-264.7672007614
 10
540.5498341346
 20
-270.0350421496
 10
536.7723632253
 20
-275.4565005688
 10
533.1496108694
 20
-281.0162083059
 10
529.6918461521
 20
-286.6984057655
 10
526.4088704831
 20
-292.4869861414
 10
523.3099898137
 20
-298.3655410736
 10
520.4039882578
 20
-304.3174071596
 10
517.6991031925
 20
-310.3257131882
 10
515.2030019085
 20
-316.3734279632
 10
512.922759876
 20
-322.4434085801
 10
510.8648406888
 20
-328.5184490193
 10
509.0350777424
 20
-334.5813289186
 10
507.4386576988
 20
-340.6148623862
 10
506.0801057839
 20
-346.6019467161
 10
504.9632729607
 20
-352.5256108672
 10
504.0913250133
 20
-358.3690635698
 10
503.4667335728
 20
-364.1157409225
 10
503.0912691115
 20
-369.7493533439
 10
502.9659959242
 20
-375.2539317476
 10
503.0912691115
 20
-380.6138728079
 10
503.4667335728
 20
-385.8139831897
 10
504.0913250133
 20
-390.839522615
 10
504.9632729607
 20
-395.6762456464
 10
506.0801057839
 20
-400.310442067
 10
507.4386576988
 20
-404.7289757434
 10
509.0350777424
 20
-408.919321862
 10
510.8648406888
 20
-412.8696024314
 10
512.922759876
 20
-416.5686199521
 10
515.2030019085
 20
-420.005889157
 10
517.6991031925
 20
-423.1716667333
 10
520.4039882578
 20
-426.0569789404
 10
523.3099898137
 20
-428.6536470473
 10
526.4088704831
 20
-430.9543105162
 10
529.6918461521
 20
-432.9524478665
 10
533.1496108694
 20
-434.6423951609
 10
536.7723632253
 20
-436.01936206
 10
540.5498341347
 20
-437.0794454017
 10
544.4713159457
 20
-437.8196402645
 10
548.5256927923
 20
-438.2378484857
 10
552.7014721027
 20
-438.3328846086
 10
556.9868171768
 20
-438.104479243
 10
561.3695807383
 20
-437.5532798287
 10
565.8373393678
 20
-436.6808488004
 10
570.3774287181
 20
-435.4896591586
 10
574.9769794126
 20
-433.9830874598
 10
579.6229535252
 20
-432.165404245
 10
584.3021815374
 20
-430.041761935
 10
589.0013996691
 20
-427.6181802244
 10
593.707287476
 20
-424.9015290191
 10
598.4065056077
 20
-421.8995089619
 10
603.0857336199
 20
-418.620629605
 10
607.7317077325
 20
-415.074185288
 10
612.331258427
 20
-411.2702287928
 10
616.8713477773
 20
-407.2195428472
 10
621.3391064068
 20
-402.9336095607
 10
625.7218699684
 20
-398.4245778769
 10
630.0072150424
 20
-393.7052291359
 10
634.1829943528
 20
-388.7889408444
 10
638.2373711994
 20
-383.6896487559
 10
642.1588530105
 20
-378.4218073677
 10
645.9363239198
 20
-373.0003489485
 10
649.5590762757
 20
-367.4406412114
 10
653.0168409931
 20
-361.7584437518
 10
656.299816662
 20
-355.9698633759
 10
659.3986973315
 20
-350.0913084437
 10
662.3046988874
 20
-344.1394423577
 10
665.0095839526
 20
-338.1311363291
 10
667.5056852366
 20
-332.0834215541
 10
669.7859272691
 20
-326.0134409372
 10
671.8438464563
 20
-319.938400498
 10
673.6736094027
 20
-313.8755205987
 10
675.2700294463
 20
-307.8419871311
 10
676.6285813613
 20
-301.8549028012
 10
677.7454141844
 20
-295.9312386501
 10
678.6173621319
 20
-290.0877859475
 10
679.2419535724
 20
-284.3411085948
 10
679.6174180336
 20
-278.7074961734
 10
679.7426912209
 20
-273.2029177697
  0
LWPOLYLINE
  5
C6
330
1F
100
AcDbEntity
  8
0
  6
Continuous
 62
     7
370
    25
100
AcDbPolyline
 90
       16
 70
   128
 43
0.0
 10
1096.9356921209
 20
-514.0433107574
 10
1096.8104189337
 20
-508.6833696971
 10
1096.4349544724
 20
-503.4832593153
 10
1095.8103630319
 20
-498.45771989
 10
1094.9384150845
 20
-493.6209968586
 10
1093.8215822613
 20
-488.986800438
 10
1092.4630303464
 20
-484.5682667616
 10
1090.8666103027
 20
-480.377920643
 10
1089.0368473564
 20
-476.4276400736
 10
1086.9789281692
 20
-472.7286225529
 10
1084.6986861367
 20
-469.2913533479
 10
1082.2025848527
 20
-466.1255757717
 10
1079.4976997874
 20
-463.2402635646
 10
1076.5916982315
 20
-460.6435954577
 10
1073.4928175621
 20
-458.3429319888
 10
1071.0422652624
 20
-456.8127099488
  0
LWPOLYLINE
  5
C7
330
1F
100
AcDbEntity
  8
0
  6
Continuous
 62
     7
370
    25
100
AcDbPolyline
 90
       46
 70
   128
 43
0.0
 10
946.0524236829
 20
-673.3249255439
 10
946.8848470521
 20
-673.7928408542
 10
950.3426117694
 20
-675.4827881486
 10
953.9653641254
 20
-676.8597550477
 10
957.7428350347
 20
-677.9198383894
 10
961.6643168458
 20
-678.6600332522
 10
965.7186936924
 20
-679.0782414734
 10
969.8944730028
 20
-679.1732775963
 10
974.1798180768
 20
-678.9448722307
 10
978.5625816384
 20
-678.3936728164
 10
983.0303402679
 20
-677.5212417881
 10
987.5704296182
 20
-676.3300521463
 10
992.1699803127
 20
-674.8234804475
 10
996.8159544253
 20
-673.0057972327
 10
1001.4951824375
 20
-670.8821549227
 10
1006.1944005692
 20
-668.4585732121
 10
1010.900288376
 20
-665.7419220068
 10
1015.5995065078
 20
-662.7399019496
 10
1020.27873452
 20
-659.4610225927
 10
1024.9247086325
 20
-655.9145782757
 10
1029.5242593271
 20
-652.1106217805
 10
1034.0643486773
 20
-648.0599358349
 10
1038.5321073069
 20
-643.7740025484
 10
1042.9148708684
 20
-639.2649708646
 10
1047.2002159425
 20
-634.5456221235
 10
1051.3759952529
 20
-629.6293338321
 10
1055.4303720994
 20
-624.5300417436
 10
1059.3518539105
 20
-619.2622003554
 10
1063.1293248199
 20
-613.8407419362
 10
1066.7520771758
 20
-608.281034199
 10
1070.2098418931
 20
-602.5988367395
 10
1073.4928175621
 20
-596.8102563636
 10
1076.5916982315
 20
-590.9317014314
 10
1079.4976997874
 20
-584.9798353454
 10
1082.2025848527
 20
-578.9715293168
 10
1084.6986861367
 20
-572.9238145418
 10
1086.9789281692
 20
-566.8538339249
 10
1089.0368473564
 20
-560.7787934857
 10
1090.8666103027
 20
-554.7159135864
 10
1092.4630303464
 20
-548.6823801188
 10
1093.8215822613
 20
-542.6952957889
 10
1094.9384150845
 20
-536.7716316378
 10
1095.8103630319
 20
-530.9281789352
 10
1096.4349544724
 20
-525.1815015825
 10
1096.8104189337
 20
-519.5478891611
 10
1096.9356921209
 20
-514.0433107574
  0
LWPOLYLINE
  5
C8
330
1F
100
AcDbEntity
  8
0
  6
Continuous
 62
     7
370
    25
100
AcDbPolyline
 90
      108
 70
   128
 43
0.0
 10
663.6913672879
 20
-282.4691498389
 10
663.5666869348
 20
-277.6388249385
 10
663.1930756746
 20
-272.9691040403
 10
662.5718214225
 20
-268.4760846395
 10
661.7050657708
 20
-264.1752551049
 10
660.5957966057
 20
-260.0814412867
 10
659.2478378078
 20
-256.2087554094
 10
657.6658360704
 20
-252.5705474234
 10
655.8552448812
 20
-249.1793589853
 10
653.822305723
 20
-246.0468802242
 10
651.5740265584
 20
-243.1839094433
 10
649.1181576713
 20
-240.600315896
 10
646.4631649505
 20
-238.3050057644
 10
643.6182007061
 20
-236.3058914582
 10
640.5930721191
 20
-234.6098643384
 10
637.3982074343
 20
-233.222770962
 10
634.0446200124
 20
-232.149392927
 10
630.5438703638
 20
-231.3934303899
 10
626.9080262977
 20
-230.9574893103
 10
623.149621322
 20
-230.8430724673
 10
619.2816114371
 20
-231.0505742795
 10
615.3173304744
 20
-231.5792794452
 10
611.2704441317
 20
-232.4273654081
 10
607.1549028644
 20
-233.5919086403
 10
602.9848937961
 20
-235.0688947199
 10
598.7747918117
 20
-236.8532321699
 10
594.539110005
 20
-238.9387700096
 10
590.2924496486
 20
-241.3183189579
 10
586.0494498606
 20
-243.9836762167
 10
581.8247371402
 20
-246.9256537474
 10
577.6328749473
 20
-250.1341099439
 10
573.4883134994
 20
-253.597984593
 10
569.4053399582
 20
-257.3053370013
 10
565.3980291795
 20
-261.243387157
 10
561.4801951936
 20
-265.3985597854
 10
557.665343586
 20
-269.7565311456
 10
553.9666249404
 20
-274.3022784076
 10
550.3967895063
 20
-279.0201314388
 10
546.9681432458
 20
-283.8938268225
 10
543.692505413
 20
-288.9065639211
 10
540.5811678099
 20
-294.0410627913
 10
537.644855862
 20
-299.2796237519
 10
534.8936916448
 20
-304.6041883979
 10
532.3371589912
 20
-309.9964018521
 10
529.984070799
 20
-315.4376760376
 10
527.8425386506
 20
-320.9092537551
 10
525.9199448509
 20
-326.3922733425
 10
524.2229169792
 20
-331.8678336957
 10
522.7573050419
 20
-337.3170594236
 10
521.5281613071
 20
-342.7211659164
 10
520.5397228879
 20
-348.0615240995
 10
519.7953971363
 20
-353.3197246518
 10
519.2977498972
 20
-358.4776414668
 10
519.048496664
 20
-363.5174941366
 10
519.048496664
 20
-368.4219092452
 10
519.2977498972
 20
-373.1739802575
 10
519.7953971363
 20
-377.7573258004
 10
520.5397228879
 20
-382.1561461323
 10
521.5281613071
 20
-386.3552776082
 10
522.7573050419
 20
-390.3402449521
 10
524.2229169792
 20
-394.0973111559
 10
525.9199448509
 20
-397.6135248341
 10
527.8425386506
 20
-400.8767648699
 10
529.984070799
 20
-403.8757821987
 10
532.3371589912
 20
-406.6002385865
 10
534.8936916448
 20
-409.0407422678
 10
537.644855862
 20
-411.1888803208
 10
540.5811678099
 20
-413.0372476686
 10
543.692505413
 20
-414.5794726061
 10
546.9681432458
 20
-415.8102387644
 10
550.3967895063
 20
-416.7253034376
 10
553.9666249404
 20
-417.3215122082
 10
557.665343586
 20
-417.596809821
 10
561.4801951937
 20
-417.5502472682
 10
565.3980291795
 20
-417.1819850606
 10
569.4053399582
 20
-416.4932926741
 10
573.4883134994
 20
-415.4865441743
 10
577.6328749473
 20
-414.1652100316
 10
581.8247371402
 20
-412.5338451587
 10
586.0494498606
 20
-410.5980732082
 10
590.2924496486
 20
-408.364567187
 10
594.539110005
 20
-405.8410264531
 10
598.7747918117
 20
-403.0361501741
 10
602.9848937961
 20
-399.9596073398
 10
607.1549028644
 20
-396.6220034304
 10
611.2704441317
 20
-393.0348438583
 10
615.3173304744
 20
-389.2104943055
 10
619.2816114371
 20
-385.1621380971
 10
623.149621322
 20
-380.9037307558
 10
626.9080262977
 20
-376.4499518937
 10
630.5438703638
 20
-371.8161546093
 10
634.0446200124
 20
-367.0183125618
 10
637.3982074344
 20
-362.0729649066
 10
640.5930721191
 20
-356.9971592816
 10
643.6182007061
 20
-351.8083930403
 10
646.4631649505
 20
-346.5245529348
 10
649.1181576713
 20
-341.1638534565
 10
651.5740265584
 20
-335.7447740472
 10
653.822305723
 20
-330.2859953962
 10
655.8552448812
 20
-324.8063350442
 10
657.6658360704
 20
-319.3246825158
 10
659.2478378078
 20
-313.8599342028
 10
660.5957966057
 20
-308.4309282246
 10
661.7050657708
 20
-303.0563794897
 10
662.5718214225
 20
-297.7548151808
 10
663.1930756746
 20
-292.5445108884
 10
663.5666869348
 20
-287.4434276109
 10
663.6913672879
 20
-282.4691498389
  0
LWPOLYLINE
  5
C9
330
1F
100
AcDbEntity
  8
0
  6
Continuous
 62
     7
370
    25
100
AcDbPolyline
 90
       65
 70
   128
 43
0.0
 10
997.7993213986
 20
-360.4769449236
 10
997.6740206214
 20
-357.459322496
 10
997.2993250048
 20
-354.326092224
 10
996.6788430725
 20
-351.1074288279
 10
995.8185504046
 20
-347.8343297958
 10
994.7267320899
 20
-344.5383168605
 10
993.4139029354
 20
-341.2511324285
 10
991.8927062038
 20
-338.0044338827
 10
990.1777918509
 20
-334.829488705
 10
988.2856754396
 20
-331.7568733531
 10
986.2345790852
 20
-328.8161787924
 10
984.0442559669
 20
-326.0357255192
 10
981.7358000936
 20
-323.4422908183
 10
979.3314431573
 20
-321.0608508837
 10
976.8543404297
 20
-318.9143402838
 10
974.3283477642
 20
-317.023431089
 10
971.7777918509
 20
-315.4063337886
 10
969.2272359377
 20
-314.0786219136
 10
966.7012432721
 20
-313.0530820551
 10
964.2241405445
 20
-312.3395907226
 10
961.8197836082
 20
-311.9450192276
 10
959.5113277349
 20
-311.8731675094
 10
957.3210046166
 20
-312.1247275392
 10
955.2699082622
 20
-312.6972766565
 10
953.3777918509
 20
-313.5853009003
 10
951.6628774981
 20
-314.7802481116
 10
950.1416807664
 20
-316.2706102957
 10
948.828851612
 20
-318.0420344498
 10
947.7370332972
 20
-320.0774607912
 10
946.8767406293
 20
-322.3572870514
 10
946.256258697
 20
-324.8595572573
 10
945.8815630804
 20
-327.5601731788
 10
945.7562623033
 20
-330.4331264085
 10
945.8815630804
 20
-333.4507488361
 10
946.256258697
 20
-336.5839791081
 10
946.8767406293
 20
-339.8026425042
 10
947.7370332972
 20
-343.0757415363
 10
948.828851612
 20
-346.3717544716
 10
950.1416807664
 20
-349.6589389036
 10
951.6628774981
 20
-352.9056374493
 10
953.3777918509
 20
-356.080582627
 10
955.2699082622
 20
-359.1531979789
 10
957.3210046166
 20
-362.0938925396
 10
959.5113277349
 20
-364.8743458129
 10
961.8197836082
 20
-367.4677805137
 10
964.2241405445
 20
-369.8492204483
 10
966.7012432721
 20
-371.9957310483
 10
969.2272359377
 20
-373.886640243
 10
971.7777918509
 20
-375.5037375434
 10
974.3283477642
 20
-376.8314494185
 10
976.8543404297
 20
-377.856989277
 10
979.3314431573
 20
-378.5704806095
 10
981.7358000936
 20
-378.9650521044
 10
984.0442559669
 20
-379.0369038227
 10
986.2345790852
 20
-378.7853437928
 10
988.2856754396
 20
-378.2127946755
 10
990.1777918509
 20
-377.3247704318
 10
991.8927062038
 20
-376.1298232204
 10
993.4139029354
 20
-374.6394610364
 10
994.7267320899
 20
-372.8680368822
 10
995.8185504046
 20
-370.8326105409
 10
996.6788430725
 20
-368.5527842807
 10
997.2993250048
 20
-366.0505140748
 10
997.6740206214
 20
-363.3498981532
 10
997.7993213986
 20
-360.4769449236
  0
LWPOLYLINE
  5
CA
330
1F
100
AcDbEntity
  8
0
  6
Continuous
 62
     7
370
    25
100
AcDbPolyline
 90
       72
 70
   128
 43
0.0
 10
1003.5975970043
 20
-363.824218182
 10
1003.4730804452
 20
-360.5048679962
 10
1003.1005052788
 20
-357.0677324671
 10
1002.4827874109
 20
-353.5397118404
 10
1001.6247613214
 20
-349.948417661
 10
1000.5331422277
 20
-346.3219566752
 10
999.2164735294
 20
-342.6887108571
 10
997.6850599443
 20
-339.0771152813
 10
995.9508868599
 20
-335.5154355801
 10
994.027526532
 20
-332.0315467261
 10
991.9300318629
 20
-328.6527148733
 10
989.6748185923
 20
-325.4053839621
 10
987.2795368218
 20
-322.3149687599
 10
984.7629328788
 20
-319.4056559556
 10
982.1447026014
 20
-316.7002148667
 10
979.4453371914
 20
-314.2198192377
 10
976.685962843
 20
-311.9838815276
 10
973.8881754019
 20
-310.0099009804
 10
971.0738713481
 20
-308.3133266705
 10
968.2650764267
 20
-306.907436592
 10
965.4837732662
 20
-305.803233741
 10
962.7517293349
 20
-305.0093600021
 10
960.0903265807
 20
-304.5320285134
 10
957.5203940887
 20
-304.3749750412
 10
955.0620450651
 20
-304.5394287418
 10
952.7345194242
 20
-305.024102542
 10
950.5560332098
 20
-305.8252032122
 10
948.5436360303
 20
-306.9364610534
 10
946.7130776222
 20
-308.3491789664
 10
945.0786845869
 20
-310.0523005181
 10
943.6532482659
 20
-312.0324964731
 10
942.4479246311
 20
-314.2742691132
 10
941.4721469742
 20
-316.7600735281
 10
940.7335520784
 20
-319.4704549277
 10
940.2379204501
 20
-322.3842009028
 10
939.9891310789
 20
-325.4785074406
 10
939.9891310789
 20
-328.7291573969
 10
940.2379204501
 20
-332.1107100284
 10
940.7335520784
 20
-335.5967001009
 10
941.4721469742
 20
-339.1598450157
 10
942.4479246311
 20
-342.7722583326
 10
943.6532482659
 20
-346.4056680196
 10
945.0786845869
 20
-350.0316377196
 10
946.7130776222
 20
-353.6217893032
 10
948.5436360303
 20
-357.1480249668
 10
950.5560332098
 20
-360.5827471352
 10
952.7345194242
 20
-363.8990744504
 10
955.0620450651
 20
-367.0710521547
 10
957.5203940887
 20
-370.073855222
 10
960.0903265807
 20
-372.8839826468
 10
962.7517293349
 20
-375.4794413719
 10
965.4837732662
 20
-377.8399184138
 10
968.2650764267
 20
-379.9469398392
 10
971.0738713481
 20
-381.7840153485
 10
973.8881754019
 20
-383.3367673352
 10
976.685962843
 20
-384.5930434096
 10
979.4453371914
 20
-385.5430115081
 10
982.1447026014
 20
-386.1792368424
 10
984.7629328788
 20
-386.4967400866
 10
987.2795368218
 20
-386.4930363473
 10
989.6748185923
 20
-386.1681546113
 10
991.9300318629
 20
-385.5246375186
 10
994.027526532
 20
-384.5675214631
 10
995.9508868599
 20
-383.3042971755
 10
997.6850599443
 20
-381.7448510987
 10
999.2164735294
 20
-379.9013880126
 10
1000.5331422277
 20
-377.7883355153
 10
1001.6247613214
 20
-375.4222311076
 10
1002.4827874109
 20
-372.8215927645
 10
1003.1005052788
 20
-370.0067740072
 10
1003.4730804452
 20
-366.9998046088
 10
1003.5975970043
 20
-363.824218182
  0
ENDSEC
  0
SECTION
  2
OBJECTS
  0
DICTIONARY
  5
C
330
0
100
AcDbDictionary
281
     1
  3
ACAD_GROUP
350
D
  3
ACAD_LAYOUT
350
1A
  3
ACAD_MLINESTYLE
350
17
  3
ACAD_PLOTSETTINGS
350
19
  3
ACAD_PLOTSTYLENAME
350
E
  3
ACAD_SCALELIST
350
47
  0
DICTIONARY
  5
D
102
{ACAD_REACTORS
330
C
102
}
330
C
100
AcDbDictionary
281
     1
  0
DICTIONARY
  5
1A
102
{ACAD_REACTORS
330
C
102
}
330
C
100
AcDbDictionary
281
     1
  3
Layout1
350
1E
  3
Layout2
350
26
  3
Model
350
22
  0
DICTIONARY
  5
17
102
{ACAD_REACTORS
330
C
102
}
330
C
100
AcDbDictionary
281
     1
  3
Standard
350
18
  0
DICTIONARY
  5
19
102
{ACAD_REACTORS
330
C
102
}
330
C
100
AcDbDictionary
281
     1
  0
ACDBDICTIONARYWDFLT
  5
E
102
{ACAD_REACTORS
330
C
102
}
330
C
100
AcDbDictionary
281
     1
  3
Normal
350
F
100
AcDbDictionaryWithDefault
340
F
  0
DICTIONARY
  5
47
102
{ACAD_REACTORS
330
C
102
}
330
C
100
AcDbDictionary
281
     1
  3
A0
350
48
  3
A1
350
49
  3
A2
350
4A
  3
A3
350
4B
  3
A4
350
4C
  3
A5
350
4D
  3
A6
350
4E
  3
A7
350
4F
  3
A8
350
50
  3
A9
350
51
  3
B0
350
52
  3
B1
350
53
  3
B2
350
54
  3
B3
350
55
  3
B4
350
56
  3
B5
350
57
  3
B6
350
58
  3
B7
350
59
  3
B8
350
5A
  3
B9
350
5B
  3
C0
350
5C
  3
C1
350
5D
  3
C2
350
5E
  3
C3
350
5F
  3
C4
350
60
  3
C5
350
61
  3
C6
350
62
  3
C7
350
63
  3
C8
350
64
  3
C9
350
65
  3
D0
350
66
  3
D1
350
67
  3
D2
350
68
  0
LAYOUT
  5
1E
102
{ACAD_REACTORS
330
1A
102
}
330
1A
100
AcDbPlotSettings
  1

  2
none_device
  4

  6

 40
0.0
 41
0.0
 42
0.0
 43
0.0
 44
0.0
 45
0.0
 46
0.0
 47
0.0
 48
0.0
 49
0.0
140
0.0
141
0.0
142
1.0
143
1.0
 70
   688
 72
     1
 73
     0
 74
     5
  7

 75
    16
147
1.0
148
0.0
149
0.0
100
AcDbLayout
  1
Layout1
 70
     1
 71
     1
 10
0.0
 20
0.0
 11
420.0
 21
297.0
 12
0.0
 22
0.0
 32
0.0
 14
1.0000000000E+20
 24
1.0000000000E+20
 34
1.0000000000E+20
 15
-1.0000000000E+20
 25
-1.0000000000E+20
 35
-1.0000000000E+20
146
0.0
 13
0.0
 23
0.0
 33
0.0
 16
1.0
 26
0.0
 36
0.0
 17
0.0
 27
1.0
 37
0.0
 76
     0
330
1B
  0
LAYOUT
  5
26
102
{ACAD_REACTORS
330
1A
102
}
330
1A
100
AcDbPlotSettings
  1

  2
none_device
  4

  6

 40
0.0
 41
0.0
 42
0.0
 43
0.0
 44
0.0
 45
0.0
 46
0.0
 47
0.0
 48
0.0
 49
0.0
140
0.0
141
0.0
142
1.0
143
1.0
 70
   688
 72
     1
 73
     0
 74
     5
  7

 75
    16
147
1.0
148
0.0
149
0.0
100
AcDbLayout
  1
Layout2
 70
     1
 71
     2
 10
0.0
 20
0.0
 11
0.0
 21
0.0
 12
0.0
 22
0.0
 32
0.0
 14
0.0
 24
0.0
 34
0.0
 15
0.0
 25
0.0
 35
0.0
146
0.0
 13
0.0
 23
0.0
 33
0.0
 16
1.0
 26
0.0
 36
0.0
 17
0.0
 27
1.0
 37
0.0
 76
     0
330
23
  0
LAYOUT
  5
22
102
{ACAD_REACTORS
330
1A
102
}
330
1A
100
AcDbPlotSettings
  1

  2
none_device
  4
Letter_(8.50_x_11.00_Inches)
  6

 40
6.35
 41
6.35
 42
6.35000508
 43
6.35000508
 44
215.9
 45
279.4
 46
0.0
 47
0.0
 48
0.0
 49
0.0
140
0.0
141
0.0
142
1.0
143
1.0
 70
  1712
 72
     1
 73
     0
 74
     0
  7

 75
     0
147
1.0
148
0.0
149
0.0
100
AcDbLayout
  1
Model
 70
     1
 71
     0
 10
0.0
 20
0.0
 11
279.4
 21
215.9
 12
0.0
 22
0.0
 32
0.0
 14
0.0
 24
0.0
 34
0.0
 15
279.4
 25
215.9
 35
0.0
146
0.0
 13
0.0
 23
0.0
 33
0.0
 16
1.0
 26
0.0
 36
0.0
 17
0.0
 27
1.0
 37
0.0
 76
     0
330
1F
331
29
  0
MLINESTYLE
  5
18
102
{ACAD_REACTORS
330
17
102
}
330
17
100
AcDbMlineStyle
  2
Standard
 70
     0
  3

 62
   256
 51
90.0
 52
90.0
 71
     2
 49
0.5
 62
   256
  6
BYLAYER
 49
-0.5
 62
   256
  6
BYLAYER
  0
ACDBPLACEHOLDER
  5
F
102
{ACAD_REACTORS
330
E
102
}
330
E
  0
SCALE
  5
48
102
{ACAD_REACTORS
330
47
102
}
330
47
100
AcDbScale
 70
     0
300
1:1
140
1.0
141
1.0
290
     1
  0
SCALE
  5
49
102
{ACAD_REACTORS
330
47
102
}
330
47
100
AcDbScale
 70
     0
300
1:2
140
1.0
141
2.0
290
     0
  0
SCALE
  5
4A
102
{ACAD_REACTORS
330
47
102
}
330
47
100
AcDbScale
 70
     0
300
1:4
140
1.0
141
4.0
290
     0
  0
SCALE
  5
4B
102
{ACAD_REACTORS
330
47
102
}
330
47
100
AcDbScale
 70
     0
300
1:5
140
1.0
141
5.0
290
     0
  0
SCALE
  5
4C
102
{ACAD_REACTORS
330
47
102
}
330
47
100
AcDbScale
 70
     0
300
1:8
140
1.0
141
8.0
290
     0
  0
SCALE
  5
4D
102
{ACAD_REACTORS
330
47
102
}
330
47
100
AcDbScale
 70
     0
300
1:10
140
1.0
141
10.0
290
     0
  0
SCALE
  5
4E
102
{ACAD_REACTORS
330
47
102
}
330
47
100
AcDbScale
 70
     0
300
1:16
140
1.0
141
16.0
290
     0
  0
SCALE
  5
4F
102
{ACAD_REACTORS
330
47
102
}
330
47
100
AcDbScale
 70
     0
300
1:20
140
1.0
141
20.0
290
     0
  0
SCALE
  5
50
102
{ACAD_REACTORS
330
47
102
}
330
47
100
AcDbScale
 70
     0
300
1:30
140
1.0
141
30.0
290
     0
  0
SCALE
  5
51
102
{ACAD_REACTORS
330
47
102
}
330
47
100
AcDbScale
 70
     0
300
1:40
140
1.0
141
40.0
290
     0
  0
SCALE
  5
52
102
{ACAD_REACTORS
330
47
102
}
330
47
100
AcDbScale
 70
     0
300
1:50
140
1.0
141
50.0
290
     0
  0
SCALE
  5
53
102
{ACAD_REACTORS
330
47
102
}
330
47
100
AcDbScale
 70
     0
300
1:100
140
1.0
141
100.0
290
     0
  0
SCALE
  5
54
102
{ACAD_REACTORS
330
47
102
}
330
47
100
AcDbScale
 70
     0
300
2:1
140
2.0
141
1.0
290
     0
  0
SCALE
  5
55
102
{ACAD_REACTORS
330
47
102
}
330
47
100
AcDbScale
 70
     0
300
4:1
140
4.0
141
1.0
290
     0
  0
SCALE
  5
56
102
{ACAD_REACTORS
330
47
102
}
330
47
100
AcDbScale
 70
     0
300
8:1
140
8.0
141
1.0
290
     0
  0
SCALE
  5
57
102
{ACAD_REACTORS
330
47
102
}
330
47
100
AcDbScale
 70
     0
300
10:1
140
10.0
141
1.0
290
     0
  0
SCALE
  5
58
102
{ACAD_REACTORS
330
47
102
}
330
47
100
AcDbScale
 70
     0
300
100:1
140
100.0
141
1.0
290
     0
  0
SCALE
  5
59
102
{ACAD_REACTORS
330
47
102
}
330
47
100
AcDbScale
 70
     0
300
1/128" = 1'-0"
140
0.0078125
141
12.0
290
     0
  0
SCALE
  5
5A
102
{ACAD_REACTORS
330
47
102
}
330
47
100
AcDbScale
 70
     0
300
1/64" = 1'-0"
140
0.015625
141
12.0
290
     0
  0
SCALE
  5
5B
102
{ACAD_REACTORS
330
47
102
}
330
47
100
AcDbScale
 70
     0
300
1/32" = 1'-0"
140
0.03125
141
12.0
290
     0
  0
SCALE
  5
5C
102
{ACAD_REACTORS
330
47
102
}
330
47
100
AcDbScale
 70
     0
300
1/16" = 1'-0"
140
0.0625
141
12.0
290
     0
  0
SCALE
  5
5D
102
{ACAD_REACTORS
330
47
102
}
330
47
100
AcDbScale
 70
     0
300
3/32" = 1'-0"
140
0.09375
141
12.0
290
     0
  0
SCALE
  5
5E
102
{ACAD_REACTORS
330
47
102
}
330
47
100
AcDbScale
 70
     0
300
1/8" = 1'-0"
140
0.125
141
12.0
290
     0
  0
SCALE
  5
5F
102
{ACAD_REACTORS
330
47
102
}
330
47
100
AcDbScale
 70
     0
300
3/16" = 1'-0"
140
0.1875
141
12.0
290
     0
  0
SCALE
  5
60
102
{ACAD_REACTORS
330
47
102
}
330
47
100
AcDbScale
 70
     0
300
1/4" = 1'-0"
140
0.25
141
12.0
290
     0
  0
SCALE
  5
61
102
{ACAD_REACTORS
330
47
102
}
330
47
100
AcDbScale
 70
     0
300
3/8" = 1'-0"
140
0.375
141
12.0
290
     0
  0
SCALE
  5
62
102
{ACAD_REACTORS
330
47
102
}
330
47
100
AcDbScale
 70
     0
300
1/2" = 1'-0"
140
0.5
141
12.0
290
     0
  0
SCALE
  5
63
102
{ACAD_REACTORS
330
47
102
}
330
47
100
AcDbScale
 70
     0
300
3/4" = 1'-0"
140
0.75
141
12.0
290
     0
  0
SCALE
  5
64
102
{ACAD_REACTORS
330
47
102
}
330
47
100
AcDbScale
 70
     0
300
1" = 1'-0"
140
1.0
141
12.0
290
     0
  0
SCALE
  5
65
102
{ACAD_REACTORS
330
47
102
}
330
47
100
AcDbScale
 70
     0
300
1-1/2" = 1'-0"
140
1.5
141
12.0
290
     0
  0
SCALE
  5
66
102
{ACAD_REACTORS
330
47
102
}
330
47
100
AcDbScale
 70
     0
300
3" = 1'-0"
140
3.0
141
12.0
290
     0
  0
SCALE
  5
67
102
{ACAD_REACTORS
330
47
102
}
330
47
100
AcDbScale
 70
     0
300
6" = 1'-0"
140
6.0
141
12.0
290
     0
  0
SCALE
  5
68
102
{ACAD_REACTORS
330
47
102
}
330
47
100
AcDbScale
 70
     0
300
1'-0" = 1'-0"
140
12.0
141
12.0
290
     0
  0
ENDSEC
  0
EOF
